FECHAR
Tonalidade -1 Tom -1/2 Tom +1/2 Tom +1 Tom Nomenclatura Cifras Recentes
Fraco Regular Bom Muito Bom Ótimo
RIFF I - INTRODUÇÃO
--------------------------------------------------------------
--5-5-5-5------------------------------3---1h2----------------
----------2--2-2--------2-------2--2-2---2-----2---------2----
-----------------4--2-4---4-2-4--4---------------0-2-0-2------              
--------------------------------------------------------------
--------------------------------------------------------------

RIFF II (repete várias vezes ao longo da música acompanhado da base)

--------------------------------------------------
---------------------------3---1h2----------------
2-2--------2-------2---2-2---2-----2---------2----
----4--2-4---4-2-4---4---------------0-2-0-2------
--------------------------------------------------
--------------------------------------------------

Tom: G
Intro : BASE TOCAR OS ACORDES ( A - Bm-D - A ) + GUITARRA SOLO RIFF I 

( A - Bm-D - A ) + RIFF II
25 years of my life and still,   tryin' to to get up that great big hill of
hope, for a destination.  
I realized quickly when I knew I should ,
that the world was made up of this brotherhood of
man, for whatever that means.
And so I cry sometimes, when I'm lying in bed
just to get it all out, what's in my head, then
I, I am feeling, a little peculiar.
And so I wake in the morning, and I step outside
And I take a deep breath, and I get real high, and
I, scream from the top of my lungs, "What's going on?"
And I say, "Hey yeah yeah hey, hey yeah yeah." 
I said, "Hey, what's going on?"
And I say, "Hey yeah yeah hey, hey yeah yeah."
I said, "Hey, what's going on?"
 
And I try, oh my God, do I try, I try all the time, in this institution.
And I pray, oh my God, do I pray, I pray every single day,
for a revolution.
And so I cry sometimes, when I'm lying in bed
just to get it all out, what's in my head, then
I, I am feeling, a little peculiar.
And so I wake in the morning, and I step outside
And I take a deep breath, and I get real high, and
I, scream from the top of my lungs, "What's going on?"
And I say, "Hey yeah yeah hey, hey yeah yeah." 
I said, "Hey, what's going on?"
And I say, "Hey yeah yeah hey, hey yeah yeah."
I said, "Hey, what's going on?"

     (TOCAR RIFF I)

25 years of my life and still tryin' to get up that great big hill of
hope, for a destination. 



                       Enviado por:  Usuário Anônimo






Todos os direitos reservados ao autor.

Políticas de Privacidade
Visite nosso site www.CifrasFx.com.br