FECHAR
Tonalidade -1 Tom -1/2 Tom +1/2 Tom +1 Tom Nomenclatura Cifras Recentes
Fraco Regular Bom Muito Bom Ótimo
         Bm                   F#m
Da manga rosa quero gosto e o sumo
        C#m7(b5)  F#   Bm
Melão maduro sapoti joá 
                       F#m
Jaboticaba seu olhar noturno
         C#m7(b5)   F#   Bm
Beijo travoso de umbú cajá 
       A      G          D   
Pele macia, é carne de cajú
       A          G              D
Saliva doce, doce mel, mel de urucú
        C#m        F#7         Bm
Linda morena fruta de vez temporana
                 C#m
Caldo de cana caiana
F#7          Bm
Vem me desfrutar
        C#m        F#7         Bm
Linda morena fruta de vez temporana
                 C#m
Caldo de cana caiana
F#7          Bm
Vem me desfrutar
            Bm                  F#m
Morena tropicana eu quero teu sabor
Em  F#7     Bm
Ai, ai, ai, ai
            Bm                  F#m
Morena tropicana eu quero teu sabor
Em  F#7     Bm
Ai, ai, ai, ai


------7---9-10 | ---9--10^9-------------- | -10-12-12^14-12-14-14^12--------------------- | 
----10-------- | ------------12-10^12^10- | -10-----------------------15-12-------------- | 
---11--------- | ------------------------ | -11------------------------------------------ | 
-------------- | ------------------------ | --------------------------------------------- | 
-------------- | ------------------------ | --------------------------------------------- | 
-------------- | ------------------------ | --------------------------------------------- | 





---7--9--10- | --9--10^9-------------------------- | ------------------------------------ | 
--10-------- | ----------12--10^12^10^12^10^12^10- | --10--12--12^14-12-14-14^12--------- | 
------------ | ----------------------------------- | --10------------------------15-12--- | 
------------ | ----------------------------------- | --11-------------------------------- | 
------------ | ----------------------------------- | ------------------------------------ | 
------------ | ----------------------------------- | ------------------------------------ | 

---7-9^7-5-5-7-12^14^12-10- | -10^9-7-9^7-5-7^5-2- | -2^3-2^3^2--------7-9-10-9-10-9-- | 
------------------------------ | -------------------- | -----------5(6)-3---------------- | 
------------------------------ | -------------------- | --------------------------------- | 
------------------------------ | -------------------- | --------------------------------- | 
------------------------------ | -------------------- | --------------------------------- | 
------------------------------ | -------------------- | --------------------------------- | 

                                (REPETE 14 X)
--12-10-9------ | ---5^7^5- | ---14^12--------------------------------------------------- | 
----------10-7- | --------- | -----------------------14-12------------------------------- | 
--------------- | --------- | ----------------------------------------------------------- | 
--------------- | --------- | ----------------------------------------------------------- | 
--------------- | --------- | ----------------------------------------------------------- | 
--------------- | --------- | ----------------------------------------------------------- |  



                       Enviado por:  Usuário Anônimo






Todos os direitos reservados ao autor.

Políticas de Privacidade
Visite nosso site www.CifrasFx.com.br