FECHAR
Cifras Recentes
Fraco Regular Bom Muito Bom Ótimo
 
Knives And Pens                                 


                                                               Black Veil Brides
Guitar 1



     PM PM   PM    PM   PM                  
     S  S  S S   S S  S S  S S S S S S S S  
E||----------------------------------------|
B||----------------------------------------|
G||----------------------------------------|
D||------------------------------7-5-----8-|
A||--------8----10----8----8-7-5-----8-7-8-|
D||--0--0----0-----0----0----------------8-|


    PM   PM    PM       PM PM    PM     T       T       T       T  
  S S  S S   S S  S  S  S  S  S  S  T   T   T   T   T   T   T   T  
------------------------------------------------------------------|
------------------------------------------------------------------|
------------------------------------------------------------------|
--L----8---------------------14----10h-12p-10h-12p-10h-12p-10h-12-|
--L---------12----8-10--------------------------------------------|
--L-8----8-----8-------10-10----10--------------------------------|


  PM PM   PM    PM   PM                  
  S  S  S S   S S  S S  S S S S S S S S  
----------------------------------------|
----------------------------------------|
----------------------------------------|
------------------------------7-5-----8-|
--------8----10----8----8-7-5-----8-7-8-|
--0--0----0-----0----0----------------8-|


    PM   PM    PM       PM PM                   
  S S  S S   S S  S  S  S  S  S  S  S  S  S  S  
-----------------------------------------------|
-----------------------------------------------|
-----------------------------------------------|
--L----8---------------------15-14-12----------|
--L---------12----8-10----------------13-12----|
--L-8----8-----8-------10-10----------------12-|


  PM PM   PM    PM   PM                  
  S  S  S S   S S  S S  S S S S S S S S  
----------------------------------------|
----------------------------------------|
----------------------------------------|
------------------------------7-5-----8-|
--------8----10----8----8-7-5-----8-7-8-|
--0--0----0-----0----0----------------8-|


    PM   PM    PM       PM PM    PM     T       T       T       T  
  S S  S S   S S  S  S  S  S  S  S  T   T   T   T   T   T   T   T  
------------------------------------------------------------------|
------------------------------------------------------------------|
------------------------------------------------------------------|
--L----8---------------------14----10h-12p-10h-12p-10h-12p-10h-12-|
--L---------12----8-10--------------------------------------------|
--L-8----8-----8-------10-10----10--------------------------------|


  PM PM   PM    PM   PM                  
  S  S  S S   S S  S S  S S S S S S S S  
----------------------------------------|
----------------------------------------|
----------------------------------------|
------------------------------7-5-----8-|
--------8----10----8----8-7-5-----8-7-8-|
--0--0----0-----0----0----------------8-|


    PM   PM    PM       PM PM                   
  S S  S S   S S  S  S  S  S  S  S  S  S  S  S  
-----------------------------------------------|
-----------------------------------------------|
-----------------------------------------------|
--L----8---------------------15-14-12----------|
--L---------12----8-10----------------13-12----|
--L-8----8-----8-------10-10----------------12-|


  PM PM   PM    PM   PM                  
  S  S  S S   S S  S S  S S S S S S S S  
----------------------------------------|
----------------------------------------|
----------------------------------------|
------------------------------7-5-----8-|
--------8----10----8----8-7-5-----8-7-8-|
--0--0----0-----0----0----------------8-|


    PM   PM    PM       PM PM    PM     T       T       T       T  
  S S  S S   S S  S  S  S  S  S  S  T   T   T   T   T   T   T   T  
------------------------------------------------------------------|
------------------------------------------------------------------|
------------------------------------------------------------------|
--L----8---------------------14----10h-12p-10h-12p-10h-12p-10h-12-|
--L---------12----8-10--------------------------------------------|
--L-8----8-----8-------10-10----10--------------------------------|


  PM PM   PM    PM   PM                      PM                           
  S  S  S S   S S  S S  S S S S S S S S    S S  S S  S  S S  S  H         
----------------------------------------|--------------------------------|
----------------------------------------|--------------------------------|
----------------------------------------|--------------------------------|
------------------------------7-5-----8-|--L----8------------------------|
--------8----10----8----8-7-5-----8-7-8-|--L--------12-10-8-10--L--------|
--0--0----0-----0----0----------------8-|--L-8---------------------------|


  W                    H         H           W                 
-------------------|----------------------|-------------------|
-------------------|----------------------|-------------------|
-------------------|----------------------|-------------------|
--0----------------|--10--------10--------|--0----------------|
--0----------------|---7---------8--------|--0----------------|
--0----------------|---7---------8--------|--0----------------|


                               PM PM PM PM        PM PM PM PM PM  
   H         H           E  E  S  T  T  S  E.  E  S  T  T  S  S   
----------------------|------------------------------------------|
----------------------|------------------------------------------|
----------------------|------------------------------------------|
--10--------10--------|--0--0--------------0---0-----------------|
---7---------8--------|--0--0--0--0--0--0--0---0--0--0--0--0--0--|
---7---------8--------|--0--0--0--0--0--0--0---0--0--0--0--0--0--|


   E   E   S  S  S  E.   E   S  S  S  S  
----------------------------------------|
----------------------------------------|
----------------------------------------|
--10--10--10-10-10-10---10--10-10-10-10-|
---7---7---7--7--7--8----8---8--8--8--8-|
---7---7---7--7--7--8----8---8--8--8--8-|


        PM PM PM PM        PM PM PM PM PM  
  E  E  S  T  T  S  E.  E  S  T  T  S  S   
------------------------------------------|
------------------------------------------|
------------------------------------------|
--0--0--------------0---0-----------------|
--0--0--0--0--0--0--0---0--0--0--0--0--0--|
--0--0--0--0--0--0--0---0--0--0--0--0--0--|


   E   E   S  S  S  E.   E   S  S  S  S  
----------------------------------------|
----------------------------------------|
----------------------------------------|
--10--10--10-10-10-10---10--10-10-10-10-|
---7---7---7--7--7--8----8---8--8--8--8-|
---7---7---7--7--7--8----8---8--8--8--8-|


   E   S  S  S  S  S  S  S  S  S  S  S  S  E   
------17-20-17--------------------------------|
--18-----------18-----------------------------|
------------------17--------------------------|
---------------------1(b9)17-1(b9)17----17--------|
---------------------------------20----20--L--|
----------------------------------------------|


   E   S  S  S  S  S  S  S  S  S  S  S  S  E   
------17-18-17--------------------------------|
--18-----------18-----------------------------|
------------------17--------------------------|
---------------------1(b9)17-1(b9)17----17--------|
---------------------------------20----20--L--|
----------------------------------------------|


                                        W      
   E   S  S  S  S  S  S  S  S  S  S  S  S  E   
--20--17--------------------------------------|
---------18-----------------------------------|
------------17----17--------------------------|
---------------20----20-1(b9)20-1(b9)17-1(b9)17--L--|
----------------------------------------------|
----------------------------------------------|


   S S  S S  S S  S S  S S  S S  S S  S S  
------------------------------------------|
------------------------------------------|
------------------------------------------|
------------------------------------------|
-----8-10-8-12-8----8----8-10-8-12-8----8-|
--12-------------12---12-------------12---|


   S S  S S  S S  S S  S S  S S  S S  S S  
------------------------------------------|
------------------------------------------|
------------------------------------------|
------------------------------------------|
-----8-10-8-12-8----8----8-10-8-12-8----8-|
--12-------------12---12-------------12---|


  PM PM    PM PM    PM PM    PM PM    PM PM        
  S  S   S S  S   S S  S   S S  S   S S  S   S  S  
--------------------------------------------------|
--------------------------------------------------|
--------------------------------------------------|
--------------------------------------------------|
--------15-------12-------13-------12-------12-10-|
--0--0-----0--0-----0--0-----0--0-----0--0--------|


  PM PM    PM PM    PM PM    PM PM    PM PM        
  S  S   S S  S   S S  S   S S  S   S S  S   S  S  
--------------------------------------------------|
--------------------------------------------------|
--------------------------------------------------|
--------------------------------------------------|
--------15-------12-------13-------12-------12-13-|
--0--0-----0--0-----0--0-----0--0-----0--0--------|


   S S  S S  S S  S S  S S  S S  S S  S S  
------------------------------------------|
------------------------------------------|
------------------------------------------|
------------------------------------------|
-----8-10-8-12-8----8----8-10-8-12-8----8-|
--12-------------12---12-------------12---|


   S S  S S  S S  S S  S S  S S  S S  S S  
------------------------------------------|
------------------------------------------|
------------------------------------------|
------------------------------------------|
-----8-10-8-12-8----8----8-10-8-12-8----8-|
--12-------------12---12-------------12---|


  PM PM    PM PM    PM PM    PM PM    PM PM        
  S  S   S S  S   S S  S   S S  S   S S  S   S  S  
--------------------------------------------------|
--------------------------------------------------|
--------------------------------------------------|
--------------------------------------------------|
--------15-------12-------13-------12-------12-10-|
--0--0-----0--0-----0--0-----0--0-----0--0--------|


  PM PM    PM PM    PM PM    PM PM    PM PM                                     
  S  S   S S  S   S S  S   S S  S   S S  S   S  S    E  E  S S S S E  E  E  E   
--------------------------------------------------|----------------------------|
--------------------------------------------------|----------------------------|
--------------------------------------------------|----------------------------|
--------------------------------------------------|--0--0--x-0-x-0-------------|
--------15-------12-------13-------12-------12-13-|--0--0--x-0-x-0-------------|
--0--0-----0--0-----0--0-----0--0-----0--0--------|--0--0--x-0-x-0-------------|


  W                    H         H           W                 
-------------------|----------------------|-------------------|
-------------------|----------------------|-------------------|
-------------------|----------------------|-------------------|
--0----------------|--10--------10--------|--0----------------|
--0----------------|---7---------8--------|--0----------------|
--0----------------|---7---------8--------|--0----------------|


                               PM PM PM PM        PM PM PM PM PM  
   H         H           E  E  S  T  T  S  E.  E  S  T  T  S  S   
----------------------|------------------------------------------|
----------------------|------------------------------------------|
----------------------|------------------------------------------|
--10--------10--------|--0--0--------------0---0-----------------|
---7---------8--------|--0--0--0--0--0--0--0---0--0--0--0--0--0--|
---7---------8--------|--0--0--0--0--0--0--0---0--0--0--0--0--0--|


   E   E   S  S  S  E.   E   S  S  S  S  
----------------------------------------|
----------------------------------------|
----------------------------------------|
--10--10--10-10-10-10---10--10-10-10-10-|
---7---7---7--7--7--8----8---8--8--8--8-|
---7---7---7--7--7--8----8---8--8--8--8-|


        PM PM PM PM        PM PM PM PM PM  
  E  E  S  T  T  S  E.  E  S  T  T  S  S   
------------------------------------------|
------------------------------------------|
------------------------------------------|
--0--0--------------0---0-----------------|
--0--0--0--0--0--0--0---0--0--0--0--0--0--|
--0--0--0--0--0--0--0---0--0--0--0--0--0--|


   E   E   S  S  S  E.   E   S  S  S  S  
----------------------------------------|
----------------------------------------|
----------------------------------------|
--10--10--10-10-10-10---10--10-10-10-10-|
---7---7---7--7--7--8----8---8--8--8--8-|
---7---7---7--7--7--8----8---8--8--8--8-|


   E   S  S  S  S  S  S  S  S  S  S  S  S  E   
------17-20-17--------------------------------|
--18-----------18-----------------------------|
------------------17--------------------------|
---------------------1(b9)17-1(b9)17----17--------|
---------------------------------20----20--L--|
----------------------------------------------|


   E   S  S  S  S  S  S  S  S  S  S  S  S  E   
------17-18-17--------------------------------|
--18-----------18-----------------------------|
------------------17--------------------------|
---------------------1(b9)17-1(b9)17----17--------|
---------------------------------20----20--L--|
----------------------------------------------|


                                        W      
   E   S  S  S  S  S  S  S  S  S  S  S  S  E   
--20--17--------------------------------------|
---------18-----------------------------------|
------------17----17--------------------------|
---------------20----20-1(b9)20-1(b9)17-1(b9)17--L--|
----------------------------------------------|
----------------------------------------------|


   S S  S S  S S  S S  S S  S S  S S  S S  
------------------------------------------|
------------------------------------------|
------------------------------------------|
------------------------------------------|
-----8-10-8-12-8----8----8-10-8-12-8----8-|
--12-------------12---12-------------12---|


   S S  S S  S S  S S  S S  S S  S S  S S  
------------------------------------------|
------------------------------------------|
------------------------------------------|
------------------------------------------|
-----8-10-8-12-8----8----8-10-8-12-8----8-|
--12-------------12---12-------------12---|


  PM PM    PM PM    PM PM    PM PM    PM PM        
  S  S   S S  S   S S  S   S S  S   S S  S   S  S  
--------------------------------------------------|
--------------------------------------------------|
--------------------------------------------------|
--------------------------------------------------|
--------15-------12-------13-------12-------12-10-|
--0--0-----0--0-----0--0-----0--0-----0--0--------|


  PM PM    PM PM    PM PM    PM PM    PM PM        
  S  S   S S  S   S S  S   S S  S   S S  S   S  S  
--------------------------------------------------|
--------------------------------------------------|
--------------------------------------------------|
--------------------------------------------------|
--------15-------12-------13-------12-------12-13-|
--0--0-----0--0-----0--0-----0--0-----0--0--------|


   S S  S S  S S  S S  S S  S S  S S  S S  
------------------------------------------|
------------------------------------------|
------------------------------------------|
------------------------------------------|
-----8-10-8-12-8----8----8-10-8-12-8----8-|
--12-------------12---12-------------12---|


   S S  S S  S S  S S  S S  S S  S S  S S  
------------------------------------------|
------------------------------------------|
------------------------------------------|
------------------------------------------|
-----8-10-8-12-8----8----8-10-8-12-8----8-|
--12-------------12---12-------------12---|


  PM PM    PM PM    PM PM    PM PM    PM PM        
  S  S   S S  S   S S  S   S S  S   S S  S   S  S  
--------------------------------------------------|
--------------------------------------------------|
--------------------------------------------------|
--------------------------------------------------|
--------15-------12-------13-------12-------12-10-|
--0--0-----0--0-----0--0-----0--0-----0--0--------|


  PM PM    PM PM    PM PM    PM PM    PM PM        
  S  S   S S  S   S S  S   S S  S   S S  S   S  S  
--------------------------------------------------|
--------------------------------------------------|
--------------------------------------------------|
--------------------------------------------------|
--------15-------12-------13-------12-------12-13-|
--0--0-----0--0-----0--0-----0--0-----0--0--------|


   S  S  S  S  S  S  S  S  S  S  S  S  S  S  S  S  
--------------------------------------------------|
--------------------------------------------------|
-----10-12-10-14-10----10----10-12-10-14-10----10-|
--12----------------12----12----------------12----|
--------------------------------------------------|
--------------------------------------------------|


   S  S  S  S  S  S  S  S  S  S  S  S  S  S  S  S  
--------------------------------------------------|
--------------------------------------------------|
-----10-12-10-14-10----10----10-12-10-14-10----10-|
--12----------------12----12----------------12----|
--------------------------------------------------|
--------------------------------------------------|


  PM PM    PM PM    PM PM    PM PM    PM PM        
  S  S   S S  S   S S  S   S S  S   S S  S   S  S  
--------------------------------------------------|
--------------------------------------------------|
--------------------------------------------------|
--------------------------------------------------|
--------15-------12-------13-------12-------12-10-|
--0--0-----0--0-----0--0-----0--0-----0--0--------|


  PM PM    PM PM    PM PM    PM PM    PM PM        
  S  S   S S  S   S S  S   S S  S   S S  S   S  S  
--------------------------------------------------|
--------------------------------------------------|
--------------------------------------------------|
--------------------------------------------------|
--------15-------12-------13-------12-------12-13-|
--0--0-----0--0-----0--0-----0--0-----0--0--------|


   S  S  S  S  S  S  S  S  S  S  S  S  S  S  S  S  
--------------------------------------------------|
--------------------------------------------------|
-----10-12-10-14-10----10----10-12-10-14-10----10-|
--12----------------12----12----------------12----|
--------------------------------------------------|
--------------------------------------------------|


   S  S  S  S  S  S  S  S  S  S  S  S  S  S  S  S  
--------------------------------------------------|
--------------------------------------------------|
-----10-12-10-14-10----10----10-12-10-14-10----10-|
--12----------------12----12----------------12----|
--------------------------------------------------|
--------------------------------------------------|


  PM PM    PM PM    PM PM    PM PM    PM PM        
  S  S   S S  S   S S  S   S S  S   S S  S   S  S  
--------------------------------------------------|
--------------------------------------------------|
--------------------------------------------------|
--------------------------------------------------|
--------15-------12-------13-------12-------12-10-|
--0--0-----0--0-----0--0-----0--0-----0--0--------|


  PM PM    PM PM    PM PM    PM PM    PM PM                            
  S  S   S S  S   S S  S   S S  S   S S  S   S  S    W                 
--------------------------------------------------|-------------------|
--------------------------------------------------|-------------------|
--------------------------------------------------|-------------------|
--------------------------------------------------|--0----------------|
--------15-------12-------13-------12-------12-13-|--0----------------|
--0--0-----0--0-----0--0-----0--0-----0--0--------|--0----------------|


                          PM      PM PM          
  W                   E.  S  Q    S  S  E  Q     
-------------------|----------------------------|
-------------------|----------------------------|
-------------------|----------------------------|
--0----------------|--0------0------------------|
--0----------------|--0---0--0----0--0----------|
--0----------------|--0---0--0----0--0----------|


     PM PM PM PM PM PM    PM PM PM PM            PM      PM PM      NH     
  E  T  T  T  T  S  S  E  E  E  S  S  S S    E.  S  Q    S  S  E    Q      
------------------------------------------|-------------------------------|
------------------------------------------|-------------------------------|
------------------------------------------|-------------------------------|
------------------------------------------|--0------0---------------------|
-----0--0--0--0--0--0-----0--0--0--0------|--0---0--0----0--0-------------|
-----0--0--0--0--0--0-----0--0--0--0------|--0---0--0----0--0-----<>5~----|


     PM PM PM PM PM PM    PM PM PM PM            PM      PM PM          
  E  T  T  T  T  S  S  E  E  E  S  S  S S    E.  S  Q    S  S  E  Q     
------------------------------------------|----------------------------|
------------------------------------------|----------------------------|
------------------------------------------|----------------------------|
------------------------------------------|--0------0------------------|
-----0--0--0--0--0--0-----0--0--0--0------|--0---0--0----0--0----------|
--L--0--0--0--0--0--0-----0--0--0--0------|--0---0--0----0--0----------|


     PM PM PM PM PM PM    PM PM PM PM            PM      PM PM          
  E  T  T  T  T  S  S  E  E  E  S  S  S S    E.  S  Q    S  S  E  Q     
------------------------------------------|----------------------------|
------------------------------------------|----------------------------|
------------------------------------------|----------------------------|
------------------------------------------|--0------0------------------|
-----0--0--0--0--0--0-----0--0--0--0------|--0---0--0----0--0----------|
-----0--0--0--0--0--0-----0--0--0--0------|--0---0--0----0--0----------|


     PM PM PM PM PM PM    PM PM PM PM      
  E  T  T  T  T  S  S  E  E  E  S  S  S S  
------------------------------------------|
------------------------------------------|
------------------------------------------|
------------------------------------------|
-----0--0--0--0--0--0-----0--0--0--0------|
-----0--0--0--0--0--0-----0--0--0--0------|


   E   S  S  S  S  S  S  S  S  S  S  S  S  E   
------17-20-17--------------------------------|
--18-----------18-----------------------------|
------------------17--------------------------|
---------------------1(b9)17-1(b9)17----17--------|
---------------------------------20----20--L--|
----------------------------------------------|


   E   S  S  S  S  S  S  S  S  S  S  S  S  E   
------17-18-17--------------------------------|
--18-----------18-----------------------------|
------------------17--------------------------|
---------------------1(b9)17-1(b9)17----17--------|
---------------------------------20----20--L--|
----------------------------------------------|


                                        W      
   E   S  S  S  S  S  S  S  S  S  S  S  S  E   
--20--17--------------------------------------|
---------18-----------------------------------|
------------17----17--------------------------|
---------------20----20-1(b9)20-1(b9)17-1(b9)17--L--|
----------------------------------------------|
----------------------------------------------|


   S S  S S  S S  S S  S S  S S  S S  S S  
------------------------------------------|
------------------------------------------|
------------------------------------------|
------------------------------------------|
-----8-10-8-12-8----8----8-10-8-12-8----8-|
--12-------------12---12-------------12---|


   S S  S S  S S  S S  S S  S S  S S  S S  
------------------------------------------|
------------------------------------------|
------------------------------------------|
------------------------------------------|
-----8-10-8-12-8----8----8-10-8-12-8----8-|
--12-------------12---12-------------12---|


  PM PM    PM PM    PM PM    PM PM    PM PM        
  S  S   S S  S   S S  S   S S  S   S S  S   S  S  
--------------------------------------------------|
--------------------------------------------------|
--------------------------------------------------|
--------------------------------------------------|
--------15-------12-------13-------12-------12-10-|
--0--0-----0--0-----0--0-----0--0-----0--0--------|


  PM PM    PM PM    PM PM    PM PM    PM PM        
  S  S   S S  S   S S  S   S S  S   S S  S   S  S  
--------------------------------------------------|
--------------------------------------------------|
--------------------------------------------------|
--------------------------------------------------|
--------15-------12-------13-------12-------12-13-|
--0--0-----0--0-----0--0-----0--0-----0--0--------|


   S S  S S  S S  S S  S S  S S  S S  S S  
------------------------------------------|
------------------------------------------|
------------------------------------------|
------------------------------------------|
-----8-10-8-12-8----8----8-10-8-12-8----8-|
--12-------------12---12-------------12---|


   S S  S S  S S  S S  S S  S S  S S  S S  
------------------------------------------|
------------------------------------------|
------------------------------------------|
------------------------------------------|
-----8-10-8-12-8----8----8-10-8-12-8----8-|
--12-------------12---12-------------12---|


  PM PM    PM PM    PM PM    PM PM    PM PM        
  S  S   S S  S   S S  S   S S  S   S S  S   S  S  
--------------------------------------------------|
--------------------------------------------------|
--------------------------------------------------|
--------------------------------------------------|
--------15-------12-------13-------12-------12-10-|
--0--0-----0--0-----0--0-----0--0-----0--0--------|


  PM PM    PM PM    PM PM    PM PM    PM PM        
  S  S   S S  S   S S  S   S S  S   S S  S   S  S  
--------------------------------------------------|
--------------------------------------------------|
--------------------------------------------------|
--------------------------------------------------|
--------15-------12-------13-------12-------12-13-|
--0--0-----0--0-----0--0-----0--0-----0--0--------|


   S  S  S  S  S  S  S  S  S  S  S  S  S  S  S  S  
--------------------------------------------------|
--------------------------------------------------|
-----10-12-10-14-10----10----10-12-10-14-10----10-|
--12----------------12----12----------------12----|
--------------------------------------------------|
--------------------------------------------------|


   S  S  S  S  S  S  S  S  S  S  S  S  S  S  S  S  
--------------------------------------------------|
--------------------------------------------------|
-----10-12-10-14-10----10----10-12-10-14-10----10-|
--12----------------12----12----------------12----|
--------------------------------------------------|
--------------------------------------------------|


  PM PM    PM PM    PM PM    PM PM    PM PM        
  S  S   S S  S   S S  S   S S  S   S S  S   S  S  
--------------------------------------------------|
--------------------------------------------------|
--------------------------------------------------|
--------------------------------------------------|
--------15-------12-------13-------12-------12-10-|
--0--0-----0--0-----0--0-----0--0-----0--0--------|


  PM PM    PM PM    PM PM    PM PM    PM PM        
  S  S   S S  S   S S  S   S S  S   S S  S   S  S  
--------------------------------------------------|
--------------------------------------------------|
--------------------------------------------------|
--------------------------------------------------|
--------15-------12-------13-------12-------12-13-|
--0--0-----0--0-----0--0-----0--0-----0--0--------|


   S  S  S  S  S  S  S  S  S  S  S  S  S  S  S  S  
--------------------------------------------------|
--------------------------------------------------|
-----10-12-10-14-10----10----10-12-10-14-10----10-|
--12----------------12----12----------------12----|
--------------------------------------------------|
--------------------------------------------------|


   S  S  S  S  S  S  S  S  S  S  S  S  S  S  S  S  
--------------------------------------------------|
--------------------------------------------------|
-----10-12-10-14-10----10----10-12-10-14-10----10-|
--12----------------12----12----------------12----|
--------------------------------------------------|
--------------------------------------------------|


  PM PM    PM PM    PM PM    PM PM    PM PM        
  S  S   S S  S   S S  S   S S  S   S S  S   S  S  
--------------------------------------------------|
--------------------------------------------------|
--------------------------------------------------|
--------------------------------------------------|
--------15-------12-------13-------12-------12-10-|
--0--0-----0--0-----0--0-----0--0-----0--0--------|


  PM PM    PM PM    PM PM    PM PM    PM PM        
  S  S   S S  S   S S  S   S S  S   S S  S   S  S  
--------------------------------------------------|
--------------------------------------------------|
--------------------------------------------------|
--------------------------------------------------|
--------15-------12-------13-------12-------12-13-|
--0--0-----0--0-----0--0-----0--0-----0--0--------|


      PM      PM PM      PH          PM PM PM PM PM PM    PM PM PM PM      
  E.  S  Q    S  S  E    Q        E  T  T  T  T  S  S  E  E  E  S  S  S S  
-------------------------------|------------------------------------------|
-------------------------------|------------------------------------------|
-------------------------------|------------------------------------------|
--0------0---------------------|------------------------------------------|
--0---0--0----0--0-------------|-----0--0--0--0--0--0-----0--0--0--0------|
--0---0--0----0--0-----<>5~----|--L--0--0--0--0--0--0-----0--0--0--0------|


      PM      PM PM      PH          PM PM PM PM PM PM    PM PM      PM PM   
  E.  S  Q    S  S  E    Q        E  T  T  T  T  S  S  E  E  S  S E  S  S    
-------------------------------|-------------------------------------------||
-------------------------------|-------------------------------------------||
-------------------------------|-------------------------------------------||
--0------0---------------------|-------------------------------------------||
--0---0--0----0--0-------------|-----0--0--0--0--0--0-----0--0--0----0--0--||
--0---0--0----0--0-----<>7~----|--L--0--0--0--0--0--0-----0--0--0----0--0--||
Enviado por: Camila



Todos os direitos reservados ao autor.

Políticas de Privacidade
Visite nosso site www.CifrasFx.com.br