FECHAR
Tonalidade -1 Tom -1/2 Tom +1/2 Tom +1 Tom Nomenclatura Cifras Recentes
Fraco Regular Bom Muito Bom Ótimo
Tom: Am

Intro.: Am AADD9

Am
Quando a noite cai
                           Dm
É que eu sinto a falta que você me faz
                                G
Saudade que não passa e nem me deixa em paz
E                              Am            E
A sombra de um amor que já brilhou demais.      
             Am                        
Você foi pra mim
                            Dm
A coisa mais bonita que me aconteceu
                             G
Nem pode imaginar os sonhos que me deu
E                                  Am   A7
E quanta insegurança que deixou o adeus.           


Dm
Amei você             
G                                     C
Sem truques, sem maldades, fiz o meu papel       
Am                            Dm 
Eu quis lhe oferecer o que ninguém me deu         
E                             Am     A7
Você não acredita, mas eu fui fiel


Dm                      
Amei você              
G                                  C 
Mas hoje posso ver que foi melhor assim
Am                               Dm
Preciso te esquecer pra me lembrar de mim          
E            Am     A7
A vida continua          


Dm                          G
E no brilho de uma pedra falsa
C                      Am       
Dei amor a quem não merecia   
Dm                 E                     Am      A7
Eu pensei que era uma jóia rara, era bijuteria


Dm                        G   
Das mentiras as palavras doces 
C                        Am
Se calou no teu olhar tão frio  
Dm                       E                   Am
Na beleza do teu rosto esconde um coração vazio.  

(Solo)
E |  | ---------------------- | ----------------------- | ---------------------------- | 
B |  | -------------/10-8-6-- | -8/10--10-------------- | --------------------/8-6-5-- | 
G |  | ---------------------- | ---------------------5- | --5---4-4--2--4------------- | 
D |  | ---------------------- | ---------------------7- | --7---5-5--3--5------------- | 
A |  | ---------------------- | ----------------------- | ---------------------------- | 
E |  | ---------------------- | ----------------------- | ---------------------------- | 


                                                      
------------7----10---- | --10-----8-7-8--------------- | 
-6/8--8---------------- | ---------------10~~-/10-8-6-- | 
----------------------- | ----------------------------- | 
----------------------- | ----------------------------- | 
----------------------- | ----------------------------- | 
----------------------- | ----------------------------- | 


                                               
--------------7fr----8fr---- | 
-8/10--10------------------- | 
---------------------------- | 
---------------------------- | 
---------------------------- | 
---------------------------- | 


                                                                    
--10-----------------------------12---10- | --10---8-8--------------- | 
-------------------------10-9-10--------- | ------------------------- | 
--------------------10-8----------------- | ---------------------5-7- | 
---------------10-8---------------------- | ------------------------- | 
----------10-8--------------------------- | ------------------------- | 
----------------------------------------- | ------------------------- | 


                                  
-------------------------------- |  | 
-------------------------------- |  | 
--9---7-6----------------------- |  | 
------------7-9-10-9-7---------- |  | 
-----------------------10-8-7--- |  | 
-------------------------------- |  | 

~ = vibrato
/ = slide up
fr = trinado

REPETE: 2° parte + REFRÃO 



                       Enviado por:  Usuário Anônimo






Todos os direitos reservados ao autor.

Políticas de Privacidade
Visite nosso site www.CifrasFx.com.br