FECHAR
Cifras Recentes
Fraco Regular Bom Muito Bom Ótimo
 
Introdução e verso

G -------------------|-18----16----------|-------------16-|-14-13h14-13-
D -------18----16-18-|----------18-16-14-|----16-14-16----|-------------
A ----16----16-------|-16----------------|----------------|-------------
E -17----------------|----------14-------|----------------|-12--12------
B -------------------|-------------------|-14*----14------|-------------

* se o seu baixo for de 4 cordas utilize a corda E na casa 9.


Refrão 
G -------------------------------------------------------------------|
D -6-6-6-6-(b9)(b9)(b9)(b9)-18-18-18-18-14-14-14-14--18-18-18-18-14-14-14-14-|
A -------------------------------------------------------------------|
E ---4------7--------16-16-16-16-12-0-12-12--16--16--------0---0-----|
B -------------------------------------------------------------------|


Final

G --13---------------|
D ------11-----------|
A -------------------|
E ----------14-------|
B -------------------|
Enviado por: Usuário Anônimo



Todos os direitos reservados ao autor.

Políticas de Privacidade
Visite nosso site www.CifrasFx.com.br