FECHAR
Cifras Recentes
Fraco Regular Bom Muito Bom Ótimo
 
(intro)
(00:01)
E |-------------------------------------------------------------------
B |-------------------------------------------------------------------
G |-444---------------------------------------------------------------
D |-444-6-------1/2/4--2-1-1------------------------------------------
A |-222-6-----------------4-4-----1-2-1----------1-2-4-2-1------------
E |-----4--4-6---------------4--4-------4-2-4--4----------4-----------
(riff 1)
(00:09)
E |-------------------------------------------------------------------
B |-------------------------------------------------------------------
G |-------------------------------------------------------------------
D |-------1/2/4--2-1---1----------------------------------------------
A |---2-4------------4---4-----1-2-1---------1-2-4--2-1---------------
E |-4----------------------4-4-------4-2-4-4-----------
(riff 2)
(00:16)
E |-------------------------------------------------------------------
B |-------------------------------------------------------------------
G |-444-------------466466--444--------------46646--------------------
D |-444—-6xxx6x6x6--466466--444—-2xxx2x2x2---46646--------------------
A |-222—-6xxx6x6x6--244244--222—-2xxx2x2x2---24424--------------------
E |------4xxx4x4x4---------------0xxx0x0x0----------------------------

(00:22)
E |-------------------------------------------------------------------
B |-------------------------------------------------------------------
G |-444------------46646--444------------46646--444-------------------
D |-444-6xxx6x6x6--46646--444--22222222--46646--444-------------------
A |-222-6xxx6x6x6--24424--222--22222222--24424--222--6----------------
E |-----4xxx4x4x4--------------xxxxxxxx--------------4----------------

(00:31) (coneça a música)
(00:45) (riff 1 - 2x)
( G# F# G# E C# F# ) (2x)
Depoisvc faz o riff 2 ...

(01:42) (riff 1)
(01:59) G# F# G# E C# F# (2x)

(02:15)(riff 3 - solo)
E |-------------------------------------------------------------------
B |---------------------------------------(b9)-7------------------------
G |------8-8---6-8------8-6-8---8-6-8---8-------6--8---8-6-8---8-6-8--
D |---6---------------6-------6----------------------6-------6--------
A |-------------------------------------------------------------------
E |-------------------------------------------------------------------

(02:29)
E |-------------------------------------------------------------------
B |------------------------7-9—7(b9)-12-11-7-7(b9)----------------------
G |------6-8-----8-6-----8--------------------------------------------
D |-6--(b9)----6-(b9)-----6-----------------------------------------------
A |-------------------------------------------------------------------
E |-------------------------------------------------------------------
(02:36)
( G# C# E B ) (2x)

(riff 3 - 2x)
(03:06) (riff 2 - 2x)
(03:20) (riff 1 - 4x) G#
Enviado por: Camila



Todos os direitos reservados ao autor.

Políticas de Privacidade
Visite nosso site www.CifrasFx.com.br