FECHAR
Tonalidade -1 Tom -1/2 Tom +1/2 Tom +1 Tom Nomenclatura Cifras Recentes
Fraco Regular Bom Muito Bom Ótimo
Intro : A (8x)

 A
Se esse bar fechar,
D
Ele não vem
 A
Se esse bar fechar mesmo
                          D
Se ele vier, não vai ter mais ninguém
E                  D                 A
Então se vocês me servirem mais uma por mim , tudo bem.

 A                                D
Se esse bar fechar, eu fico só
 A                                                            D
Se esse bar fechar, todos aqui vão me olhar com essa cara de dó
E                  D                 A
Então se vocês me servirem mais uma por mim , é melhor

D          A   E         F#m
Eu sei que eu marquei as 10:00
  D           A      E
E eu sei que já são 03:00
     D      A     E     F#m
Mas vai que ele se atrasou
D          A        E           F#m     Bm    A
E quando ele chega, eu já fui e a culpa é de vocês

 A                             D
Se esse bar fechar, mais um revés
 A                                                 D
Se esse bar fechar pra me tirar cês vão ter que arrastar pelos pés
   E               D                  A
Então se vocês me servirem mais uma, eu pago mais dez.

 A                           D
Se esse bar fechar, eu posso ir
 A                                             D
Se esse bar fechar faz tanto tempo que eu não consigo dormir.
 E                D                     A
Mas se vocês não servirem mais uma, eu quebro isso aqui.

Intro :
E | ----------------------------------------------------------------------------------------------
B | ------2--2-------2--2------2--2-------2--2------2--2-------2--2------2--2-------2--2----------
G | ----------------------------------------------------------------------------------------------
D | ------2--2-------2--2------2--2-------2--2------2--2-------2--2------2--2-------2--2----------
A | --0-----------0--------0-----------0--------0-----------0--------0-----------0----------------
E | ----------------------------------------------------------------------------------------------

Verso (2x) :

E--------------------------------------------------2--2----2--2----2--2----2--2----------------
B------2--2-------2--2------2--2-----2--2------------------------------------------------------
G--------------------------------------------------2--2----2--2----2--2----2--2----------------
D------2--2-------2--2------2--2-----2--2-------0-------0-------0-------0----------------------
A--0-----------0--------0---------0------------------------------------------------------------
E----------------------------------------------------------------------------------------------


Refrão :

E-----------------------------2--2------2--2---------------------------------------------------
B----------------------------------------------------2--2--------2--2--------------------------
G------1--1------1--1---------2--2------2--2---------------------------------------------------
D------2--2------2--2-----0---------0----------------2--2--------2--2--------------------------
A--2---------2-----------------------------------0-----------0---------------------------------
E----------------------------------------------------------------------------------------------


Final do Refrão :

E----------------------------------------------------------------------------------------------
B------2--2-------2--2------2--2-----2--2------------------------------------------------------
G----------------------------------------------------------------------------------------------
D------2--2-------2--2------2--2-----2--2------------------------------------------------------
A--0-----------0--------0---------0------------------------------------------------------------
E----------------------------------------------------------------------------------------------


Repete Verso 2x e Refrão

Bridge :
(Eu sei que eu marquei as 10:00)

E------2--2--------2--2-------------------------------------------------------------------------
B------------------------------2--2--------2--2-------------------------------------------------
G------2--2--------2--2--------------------------------1--1------1--1--------2--2-------2--2----
D--0-----------0---------------2--2--------2--2--------2--2------2--2---------------------------
A--------------------------0-----------0-----------2---------2---------------4--4-------4--4----
E------------------------------------------------------------------------2----------2-----------



 ( E eu sei que já são 03:00)
E------2--2--------2--2-------------------------------------------------------------------------
B------------------------------2--2--------2--2-------------------------------------------------
G------2--2--------2--2--------------------------------1--1------1--1------1--1----1--1---------
D--0-----------0---------------2--2--------2--2--------2--2------2--2------2--2----2--2---------
A--------------------------0-----------0-----------2---------2---------2---------2--------------
E-----------------------------------------------------------------------------------------------


(Mas vai que ele se atrasou)

E------2--2--------2--2-------------------------------------------------------------------------
B------------------------------2--2--------2--2-------------------------------------------------
G------2--2--------2--2--------------------------------1--1------1--1--------2--2-------2--2----
D--0-----------0---------------2--2--------2--2--------2--2------2--2---------------------------
A--------------------------0-----------0-----------2---------2---------------4--4-------4--4----
E------------------------------------------------------------------------2----------2-----------



 ( E quando ele chega, eu já fui e a culpa é de vocês)
E--------2--2-----------------------------------------------------------------------------------
B--------------------2--2-------------------------------3--3--------3--3--------2--2--------2--2
G--------2--2--------------------1--1-------2--2------------------------------------------------
D----0---------------2--2--------2--2-------------------4--4--------4--4--------2--2--------2--2
A----------------0-----------2--------------4--4----2-----------2-----------0-----------0-------
E---------------------------------------2-------------------------------------------------------


Final da Bridge :

E----------------------------------------------------------------------------------------------
B------2--2-------2--2------2--2-----2--2------------------------------------------------------
G----------------------------------------------------------------------------------------------
D------2--2-------2--2------2--2-----2--2------------------------------------------------------
A--0-----------0--------0---------0------------------------------------------------------------
E----------------------------------------------------------------------------------------------


Repete Verso 2x e Refrão

Repete Verso 2x e Refrão

Fim do último refrão :
E | ----------0-----------------------------------------------------------------------------------
B | --------2-------------------------------------------------------------------------------------
G | ------2---------------------------------------------------------------------------------------
D | ----2-----------------------------------------------------------------------------------------
A | ----------------------------------------------------------------------------------------------
E | ---------------------------------------------------------------------------------------------- 



                       Enviado por:  Eduardo






Todos os direitos reservados ao autor.

Políticas de Privacidade
Visite nosso site www.CifrasFx.com.br