FECHAR
Cifras Recentes
Fraco Regular Bom Muito Bom Ótimo
 
e|---------0-------------------------0-------- ----0----------|
B|------3-----3------1--3--1------3-----3-------3-----1-------|
G|------------------------------------------------------------|
D|------------------------------------------------------------|
A|--- 3-----------2------------0------ -----0-----------------|
E|------------------------------------------------------------|

e|---------0------------- -----------0------1--0---------------|
B|------3-----3---3--1--3--1------3-----3----------3--5--3--0--|
G|-------------------------------------------------------------|
D|-------------------------------------------------------------|
A|--- 3------------------------0-------------------------------|
E|-------------------------------------------------------------|

After into, substitute second section with this...
e|---------0-------------------------0------1--0---------------|
B|------3-----3------1--3--1------3-----3---------3--5--3--(0)-|
G|-------------------------------------------------------------|
D|-------------------------------------------------------------|
A|--- 3-----------2------------0-------------------------------|
E|-------------------------------------------------------------|
Enviado por: Camila



Todos os direitos reservados ao autor.

Políticas de Privacidade
Visite nosso site www.CifrasFx.com.br