FECHAR
Cifras Recentes
Fraco Regular Bom Muito Bom Ótimo
 
1)Verse Part One
(Before I fall...)
(Keep it sweet...)
(See this heart...)
(Run far away...)
e|--------------------------------------------|
B|----9---9---9---9----9---9---9---9----------|
G|----9---9---9---9----9---9---9---9----------|
D|--7---7---7---7-----------------------------|    2x
A|-------------------7---7---7---7------------|
E|--------------------------------------------|


2)Verse Part Two
(So I can see...)
(But tonight...)
(I'm terrified...)
(But I can't get...)
e|---------------------------------------------------------------|
B|----5---5---5---5---4---4---4---4---0---0---0---0---0---0---0--|
G|----6---6---6---6---4---4---4---4---6---6---6---6---8---8---8--|
D|----6---6---6---6---4---4---4---4---7---7---7---7---9---9---9--|
A|--4---4---4---4------------------------------------------------|
E|------------------4---4---4---4---5---5---5---5---7---7---7---7|



3)Chorus
(You're so hypnotizing...)
e|-------------------------------------||
B|-----------------------0---0---0---0-||
G|-----0---0---0---0-----9---9---9---9-||
D|-----6---6---8---8-----9---9---9---9-|| Repeat, but instead of x6990x,  
A|-----7---7---9---9---7---7---6---6---|| end with x7990x            2x
E|---5---5---7---7---------------------||


4)Bridge
(Now you see...)
e|-------------------------------------------------|
B|----5---5---5---5---0---0---0---0---0---0---0---9|
G|----6---6---6---6---8---8---8---6---9---9---9---9|
D|----6---6---6---6---9---9---9---7---9---9---9---9|
A|--4---4---4---4-------------------7---7---6---6--|
E|------------------7---7---7---7------------------|

(...a care. So here I go...)
e|-------------------------------------------------|
B|---0---0---0---0---0---0---0---0---4---4---4---4-|
G|---6---6---6---6---6---6---6---6---4---4---4---4-|
D|---7---7---7---7---7---7---7---7---4---4---4---4-|
A|-------------------------------------------------|
E|-5---5---5---5---5---5---5---5---4---4---4---4---|

(And for the first...)
e|------------------|
B|---0---0---0---0--|
G|---6---6---6---6--|
D|---7---7---7---7--|
A|------------------|
E|-5---5---5---5---7|


5)Chorus (v. 2)
(But you're so hypnotizing...)
e|------0---------0---------0------0-------0-------0---0-------|
B|------0---------0---------0------0-------0-------0---0-------|
G|---6--6------8--8------9--9---9--9----6--6----8--8---9-------|
D|-----------------------------------------------------9-------|
A|--------------------7--------6-----------------------7-------|
E|-5--------7-------------------------5-------7----------------|


6) Chorus (v. 3)
(And I can see this unraveling...)
e|-0---0---0---0---0---0---0---0---0---0-|
B|-0---0---0---0---0---0---5---0---0---0-|
G|-6---8---9---9---6---8---6---6---8---9-|
D|-7---9---9---9---7---9---6---7---9---9-|
A|-7---9---7---6---7---9---4---7---9---7-|
E|-5---7-----------5---7-------5---7-----|


Verse Part one
Verse Part two
Verse Part one
Veres Part two
Chorus
Verse Part one
Verse Part two
Verse Part one
Verse Part two
Chorus
Bridge
Chorus (v. 2)
Chorus (v. 3)

Enviado por: Catia Medeiros



Todos os direitos reservados ao autor.

Políticas de Privacidade
Visite nosso site www.CifrasFx.com.br