FECHAR
Tonalidade -1 Tom -1/2 Tom +1/2 Tom +1 Tom Nomenclatura Cifras Recentes
Fraco Regular Bom Muito Bom Ótimo
Introdução: A / A / A / A 
 
E |  | 12---------------12-------------/24--------------/24---------------
B |  | --10-12-----10-----10-12----10------10-12-----10----10-12-----10--
G |  | -------(b9)11-------------(b9)11--------------(b9)11-----------(b9)-11----
D |  | -----------------------------------------------------------------
A |  | -----------------------------------------------------------------
E |  | -----------------------------------------------------------------

Rif 1
E |  | -----------------------10-(b9) |  | 
B |  | -----------10---(b9)10-(b9)----- |  |       
G |  | ---------------------------- |  | 
D |  | ---------------------------- |  | 
A |  | ---------------------------- |  | 
E |  | ---------------------------- |  | 

A           E
Seu sangue,  tua cruz
F#m           D
Me levam de volta pra Deus
A          E  
Tua morte,   Sua vida 
F#m          D      
As trevas,  ele já venceu


E          D             E            D
Teu amor me conquistou     Sou eterno devedor


G               D
O véu se rasgou
                 F#m
Sua luz em mim brilhou
                 E                        D   E
Sua glória me cobriu Mais que vencedor eu sou 
                     D  E
Mais que vencedor eu sou


A                          E
Sei que na sala do trono está      
               F#m
Eu quero ir pra lá
            D 
Pelo novo e vivo caminho


Solinho
---12--------------------------- |  | 
-----10-----12--10-(b9)------10-(b9) |  | 
-------11-(b9)--13----11-(b9)11----- |  | 
-------------------------------- |  | 
-------------------------------- |  | 
-------------------------------- |  |  



                       Enviado por:  Tiago Medeiros






Todos os direitos reservados ao autor.

Políticas de Privacidade
Visite nosso site www.CifrasFx.com.br