FECHAR
Tonalidade -1 Tom -1/2 Tom +1/2 Tom +1 Tom Nomenclatura Cifras Recentes
Fraco Regular Bom Muito Bom timo
(intro)

     C#m        B        A        B     C#m  C#m
E | -(b9)---11-12-7--7/9/7>5---5--5>7---7>(b9)- | -(b9)---11-12-7--7/9/7>5- | 
B | -(b9)--(b9)-----7--------5--5--5--7--7--(b9)- | -(b9)--(b9)-----7--------5- | 
G | -(b9)-(b9)--(b9)--8--------6-6--6---8-8---(b9)- | -(b9)-(b9)--(b9)--8--------6- | 
D | -11---------(b9)-------7--------(b9)----11- | -11---------(b9)-------7- | 
A | --------------------------------------- | ----------------------- | 
E | --------------------------------------- | ----------------------- | 

C#5           B5
 O meu desafio  andar sozinho
A9
 Esperar no tempo os nossos destinos
B5 (slide) C#5                 B5           A9
           No olhar pra trs, esperar a paz
O que me traz
A ausncia do seu olhar

(ponte) C#5  B5  B5 (Slide) C#5 (slide) D5

E | ---------4----4>5-- | 
B | ----0-------------- | 
G | ---6---6----6------ | 
D | --7---7----7------- | 
A | -0----------------- | 
E | ------------------- | 

C#5  B5  B5 (Slide) C#5 (slide) D5

E | ---------0--------0----- | 
B | ----0---------0----0---- | 
G | ---6---6-----6------6--- | 
D | --7---7-----7----------- | 
A | -0--------------0------- | 
E | ------------------------ | 

C#5               B5
 Traz nas asas um novo dia
A9
 Me ensina a caminhar
B5 (slide) C#5       B5
            Mesmo eu sendo menino aprendi

E | -----0--0-----0------ | 
B | ----6--------6------- | 
G | ---6--------6-------- | 
D | --7--------7--------- | 
A | -0--------0---------- | 
E | --------------------- | 

C#5                       B5
  Oh meu Deus me traz de volta essa menina
A9
 Porque tudo que eu tenho  o seu amor
C#5          B5
   Joo de Barro eu te entendo agora
A9
 Por favor me ensine como guardar meu amor

(intro) 



                       Enviado por:  Fabio






Todos os direitos reservados ao autor.

Polticas de Privacidade
Visite nosso site www.CifrasFx.com.br