FECHAR
Tonalidade -1 Tom -1/2 Tom +1/2 Tom +1 Tom Nomenclatura Cifras Recentes
Fraco Regular Bom Muito Bom Ótimo
Intro:
   F                      C                      Dm                     G
E-------------------------------------------------------------------------------------------
B--5h6--5--6--5--6--5-----5h6--5--6--5--6--5-----5h6--5--6--5--6--5-----5h6--5--6--5--6--5--
G--5----5--5--5--5--5-----5----5--5--5--5--5-----5----5--5--5--5--5-----5----5--5--5--5--5--
D--3---------------------------------------------0------------------------------------------  2X
A-------------------------3-----------------------------------------------------------------
E-----------------------------------------------------------------------6-------------------




F              C9
Sai cantando, do chuveiro
Dm                   Bb9
eu sou o cara mais feliz do mundo inteiro
F                      C9                  Bb9
noite perfeita, ta na hora, quero te encontrar


F                    C9
Em frente ao espelho, tô ensaiando
Dm                  Bb9
a melhor forma de dizer que tô te amando
F                        C9                  Bb9
essa é minha chance, é agora, eu nao posso errar


Dm                    Bb9
Mas bem na hora de falar com voce
    F                   C  C11 C9
travei, comecei a gaguejar
Dm                   Bb9
 e a saída é deixar acontecer
F                  C
 o coração se entregar..


    F
Um beijo vale mais que mil palavras
    C9
Um toque é bem mais que poesia
   Gm
No seu olhar enxergo sua alma
    Bb
Sua fala é uma linda melodia
    F
Ninguem sabe explicar o que é o amor
    C9
Ninguem vai ser feliz sem ser amado
    Gm
Meu coração de vez se entregou
     Bb9                      
Confesso que eu estou apaixonado 

solo


Dm                    Bb9
Mas bem na hora de falar com voce
    F                   C  C11 C9
travei, comecei a gaguejar
Dm                   Bb9
 e a saída é deixar acontecer
F                  C
 o coração se entregar..

solo 2


    F
Um beijo vale mais que mil palavras
    C9
Um toque é bem mais que poesia
   Gm
No seu olhar enxergo sua alma
    Bb
Sua fala é uma linda melodia
    F
Ninguem sabe explicar o que é o amor
    C9
Ninguem vai ser feliz sem ser amado
    Gm
Meu coração de vez se entregou
     Bb9                      
Confesso que eu estou apaixonado


    F#
Um beijo vale mais que mil palavras
    C#9
Um toque é bem mais que poesia
   G#m
No seu olhar enxergo sua alma
    B
Sua fala é uma linda melodia
    F#
Ninguem sabe explicar o que é o amor
    C#9
Ninguem vai ser feliz sem ser amado
    G#m
Meu coração de vez se entregou
     B9                      
Confesso que eu estou apaixonado  

solo 3


E----------------------
B--6h7--6--7--6--7--6--
G--6----6--6--6--6--6-- 2x
D----------------------
A----------------------
E----------------------

 



                       Enviado por:  Catia Medeiros
Correções: Elisandro (Equipe do site Cifrasfx) -

Facebook



Afinar


Todos os direitos reservados ao autor.

Políticas de Privacidade
Visite nosso site www.CifrasFx.com.br