FECHAR
Tonalidade -1 Tom -1/2 Tom +1/2 Tom +1 Tom Nomenclatura Cifras Recentes
Fraco Regular Bom Muito Bom Ótimo
Introdução:

 Bm13-  C4(9) G7M D/F#
 Em7(9) C4(9) G7M D5


   Bm13-            C4(9)
E------------------------------------------
B-3------3-3-3-----3-------3-3-3-----------
G-0----0-------0---0-----0-------0---------
D-4--0-------------4---0-------------------
A-2----------------3-----------------------
E------------------------------------------



   G7M              D/F#
E------------------------------------------
B-3----------------3-----------------------
G-0----0-2-4-------2--2-4-0----------------
D-4--0-------------0-----------------------
A------------------------------------------
E-3----------------2-----------------------



   Em7(9)
E------------------------------------------
B-3-----3-----3-3-3-3----------------------
G-0---0-----0---------0--------------------
D-4-4-----0--------------------------------
A-2----------------------------------------
E-0----------------------------------------



   C4(9)
E------------------------------------------
B-3------3-3-3-3---------------------------
G-0----0---------0-------------------------
D-4--0-------------------------------------
A-3----------------------------------------
E------------------------------------------



   G7M              D5
E------------------------------------------
B-3----------------3-----------------------
G-0----0-2-4-------2--2-4-0----------------
D-4--0-------------0-----------------------
A------------------------------------------
E-3----------------------------------------


Primeira Parte:


   Em7(9)           C4(9)
E------------------------------------------
B---------3----------------3---------------
G-----0-------0--------0-------0-----------
D---4---4---4---4----4---0---4---4---------
A------------------3-----------------------
E-0----------------------------------------



   G7M              D/F#
E------------------------------------------
B---------3----------------3---------------
G-----0-------0--------0-------0-----------
D---4---4---4---4----4---4---4---4---------
A------------------------------------------
E-3----------------2-----------------------


    Em7(9)                      C4(9)
Tá tão difícil pra você também né
                      G7M
Com o coração vazio, mas sempre de pé
D/F#
  Buscando alguma direção

Em7(9)                        C4(9)
  Quantas vezes você me escreveu e não mandou
             G7M
Pegou o telefone e não ligou
D/F#
  Partiu seu próprio coração

Segunda Parte:
Am                        G/B   C
  Eu tenho uma má notícia     pra te dar
                 G
Isso não vai passar tão cedo
D
  Não adianta esperar
Am                     G/B
  Às vezes ficamos bem
 C
Mas depois vem o desespero
         G        D
Eu tento esconder
                                   C  D
Mas vi que pensei em você o dia inteiro

Refrão:
         Em7(9)        C4(9)               G7M
Mas sempre haverá uma data, palavra, um olhar
               D/F#
Um filme, uma música, pra te fazer lembrar
Em7(9)              C4(9)
  Um perfume, um abraço
    G7M
Um sorriso só pra atrapalhar
D/F#
  Só pra te fazer lembrar de mim

Repete Intro:

Em7(9) C4(9) G7M D5

Terceira Parte:

    Em7(9)                      C4(9)
Tá tão difícil pra você também né
                      G7M
Com o coração vazio, mas sempre de pé
D/F#
  Buscando alguma direção
Em7(9)                        C4(9)
  Quantas vezes você me escreveu e não mandou
             G7M
Pegou o telefone e não ligou
D/F#
  Partiu seu próprio coração
Am                        G/B   C
  Eu tenho uma má notícia     pra te dar
                 G
Isso não vai passar tão cedo
D
  Não adianta esperar
Am                     G/B
  Às vezes ficamos bem
 C
Mas depois vem o desespero
         G        D
Eu tento esconder
                                   C    D
Mas vi que pensei em você o dia inteiro

Segundo Refrão:


E----------------------------------------------------
B----------------------------------------------------
G-0--2--4--0-----------------------------------------
D-2--0--0--0-----------------------------------------
A-2--------2-----------------------------------------
E-0--2--3--------------------------------------------


         Em            C9                  G
Mas sempre haverá uma data, palavra, um olhar
               D
Um filme, uma música, pra te fazer lembrar
Em                  C9
  Um perfume, um abraço
            G
Um sorriso só pra atrapalhar
D
  Só pra te fazer
                       C9                  G
Mas sempre haverá uma data, palavra, um olhar
               D
Um filme, uma música, pra te fazer lembrar
Em                  C9
  Um perfume, um abraço
            G
Um sorriso só pra atrapalhar
D/F#
  Só pra te fazer lembrar de mim
D                             Am G/B C
  Só pra te fazer lembrar de mim
                            G  D/F#
Só pra te fazer lembrar de mim

Refrão Final:
         Em7(9)        C4(9)               G7M
Mas sempre haverá uma data, palavra, um olhar
               D
Um filme, uma música, pra te fazer lembrar
                      C
Um perfume, um abraço
            D
Um sorriso só pra atrapalhar
                            Am G/B C
Só pra te fazer lembrar de mim
                            Em  D/F#
só pra te fazer lembrar de mim
                            C4(9) G7M
Só pra te fazer lembrar de mim

   C4(9)             G7M
E | ------------------------------------------ | 
B | -3------3-3-3-3----3--------3-----3------- | 
G | -0--------------0--0------0-----0--------- | 
D | -4--0-0------------4--0-0-----0----------- | 
A | -3---------------------------------------- | 
E | -------------------3---------------------- |  



                       Enviado por:  Cris






Todos os direitos reservados ao autor.

Políticas de Privacidade
Visite nosso site www.CifrasFx.com.br