FECHAR
Cifras Recentes
Fraco Regular Bom Muito Bom Ótimo
 
DADGBE

This is a simple tab , a notice that no one
else had posted this song, and i love this song
so bad, so i did it by hear and by watching some covers ,
sorry but i did this in a very simple way because the
song is very easy to catch in terms of rhythm,
so  i didnt put the times hitting mutes and all of that
stuff , it is very easy

Intro
-------------------------------------------------|
--7-8-3-2-3---7-7-8-7-10-------------------------|
--5-8-3-2-3---5-7-8-7-10-------------------------|
-------------------------------------------------|
-------------------------------------------------|
-------------------------------------------------|

'---------------------'
         Palm Mute
Riff 1

--000000000000--333-666--000000000000--555--888--|
--000000000000--333-666--000000000000--555--888--|
-------------------------------------------------|
-------------------------------------------------|
-------------------------------------------------|
-------------------------------------------------|


Chorus

-0-8-3-2-3-----0-8-7-10--------------------------|
-0-8-3-2-3-----0-8-7-10--------------------------|
-------------------------------------------------|
-------------------------------------------------|
-------------------------------------------------|
-------------------------------------------------|


Riff 2

--000--------------333-666----555-888------------|
--000-5h5p---------333-666----555-888------------|
------5h5p---------------------------------------|
-------------------------------------------------|
-------------------------------------------------|
-------------------------------------------------|

'----------' x3 then        /                      x4
   Palm Mute

--0----------------------------------------------|
--0--555s888s777---------------------------------|
-----333s666s555---------------------------------|
-------------------------------------------------|
-------------------------------------------------|
-------------------------------------------------|

'-------------'
  Palm Mute
Enviado por: Tiago Medeiros



Todos os direitos reservados ao autor.

Políticas de Privacidade
Visite nosso site www.CifrasFx.com.br