FECHAR
Cifras Recentes
Fraco Regular Bom Muito Bom Ótimo
 
(intro)

E|---------------------------------------------|
B|---------------------5--6-6---6-8-5-5--------|
G|-------------5-77--7-------------------7-5-7-| (2X)
D|--------7--7---------------------------------|
A|-5(8X)--5------------------------------------|
E|---------------------------------------------|

(1 Tema)(2x)
E|------------------------5-6-6---5---5-------|
B|-------------6--8-8-8-------------8---------|
G|---5-7-7-7----------------------------7-----|
D|-7------------------------------------------|
A|--------------------------------------------|
E|--------------------------------------------|

E|--------------5-----------------|-----------|
B|----5-6-6--8------------6--5-5--|-6----5----|
G|-7---------------7---7----------|---7-------|
D|--------------------------------|-----------|
A|--------------------------------|-----------|
E|--------------------------------|-----------|
(2 Tema)
E|---------|---------------5--1----|
B|---------|------5-6-6-8-------3--|
G|--7-5-7--|-/7--------------------|
D|---------|-----------------------|
A|---------|-----------------------|
E|---------|-----------------------|

(3 Tema)
E|--6----------------------------------|
B|----6-----------------10-10-10-11-10-|
G|--------------7--10---10-10-10-10-10-|
D|-------(b9)/-7-------------------------|
A|-------------------------------------|
E|-------------------------------------|

E|-----------------------------------------|
B|-8-8-8-8-10----10-10-10-11-10-6/8-6-5----|
G|-(b9)(b9)(b9)(b9)(b9)----10-10-10-10-10-7(b9)7-6--7~|
D|-----------------------------------------|
A|-----------------------------------------|
E|-----------------------------------------|

(4 Tema)
E|----------------------------------------|
B|--------------10-----------------10-----|
G|-----(b9)10-12------12-10-(b9)10-12-----12--|
D|-12-------------------------------------|
A|----------------------------------------|
E|----------------------------------------|

E|--------------------------------------|
B|-------10-----------------------------|
G|-10-12----12-10---9/10(b9)--7-(b9)--5-7--|
D|--------------------------------------|
A|--------------------------------------|
E|--------------------------------------|

E|----------------------------------|
B|--------------8----8-10-8---------|
G|-7-(b9)10--(b9)10---10--------10---7--|
D|----------------------------------|
A|----------------------------------|
E|----------------------------------|

E|---------------------------------|
B|---------8--10--10/11---8----8---|
G|-7-(b9)10---------------7---10---(b9)|
D|---------------------------------|
A|---------------------------------|
E|---------------------------------|

(5 Tema)
E|-------|----------------------------------------|
B|-------|-10---11---10-10-11-10---8---6---5-6-5--|
G|-7-(b9)5-|-10---11---10-10-11-10---(b9)--7---------7|
D|-------|----------------------------------------|
A|-------|----------------------------------------|
E|-------|----------------------------------------|

E|--------5--------6--------5--5-5-8-5--------|
B|------6--------6--------6------------8------|
G|---7---------7--------7---------------------|
D|-7---------7--------7-----------------------|
A|--------------------------------------------|
E|--------------------------------------------|

E|-------------|
B|-8-6-5-6-5---|
G|-(b9)7-5-----7-|
D|-------------|
A|-------------|
E|-------------|
Enviado por: Tiago Medeiros



Todos os direitos reservados ao autor.

Políticas de Privacidade
Visite nosso site www.CifrasFx.com.br