FECHAR
Tonalidade -1 Tom -1/2 Tom +1/2 Tom +1 Tom Nomenclatura Cifras Recentes
Fraco Regular Bom Muito Bom Ótimo
Accoustica - Dust in the wind

OBS: Está música é mais bem tocada com dois violões, um fazendo a base
e o outro dedilhando. 

Intro: Toque os dois arranjos (solo + dedilhado) no compasso da musica
2 Vezes

1° violão-base
 
    C       C7+      C9      C      Am      Am9     Am4     Am  
e | ---0--- | ---0--- | ---0--- | ---0--- | ---0--- | ---0--- | ---0--- | ---0--- | 
B | ---1--- | ---0--- | ---3--- | ---1--- | ---1--- | ---0--- | ---3--- | ---1--- | 
G | ---0--- | ---0--- | ---0--- | ---0--- | ---2--- | ---2--- | ---2--- | ---2--- | 
D | ---2--- | ---2--- | ---2--- | ---2--- | ---2--- | ---2--- | ---2--- | ---2--- | 
A | ---3--- | ---3--- | ---3--- | ---3--- | ---0--- | ---0--- | ---0--- | ---0--- | 
E | ---0--- | ---0--- | ---0--- | ---0--- | ---0--- | ---0--- | ---0--- | ---0--- | 

2° violão dedilhado
 
(1)
 | --------------- | --------------- | -----------------
 | -1-------1----- | -0-------0----- | -3-------3-------
 | -----0-------0- | -----0-------0- | -----0-------0---
 | ---2-------2--- | ---2-------2--- | ---2-------2-----
 | -3-----3------- | -3-----3------- | -3-----3---------
 | --------------- | --------------- | -----------------

(2)                                                                                                   
 | --------------- | --------------- | -----------------
 | -1-------1----- | -0-------0----- | -3-------3-------
 | -----0-------0- | -----2-------2- | -----2-------2---
 | ---2-------2--- | ---2-------2--- | ---2-------2-----
 | -3-----3------- | -0-----0------- | -0-----0---------
 | --------------- | --------------- | -----------------

(3)                                                                                                   
 | --------------- | --------------- | -----------------
 | -1-------1----- | -0-------0----- | -3-------3-------
 | -----2-------2- | -----2-------2- | -----0-------0---
 | ---2-------2--- | ---2-------2--- | ---2-------2-----
 | -0-----0------- | -0-----0------- | -3-----3---------
 | --------------- | --------------- | -----------------

(4)                                                                                                  
 | --------------- | --------------- | -----------------
 | -1-------1----- | -0-------0----- | -3-------3-------
 | -----0-------2- | -----0-------0- | -----0-------0---
 | ---2-------2--- | ---2-------2--- | ---2-------2-----
 | -3-----3------- | -3-----3------- | -3-----3---------
 | --------------- | --------------- | -----------------

(5)                                                                                                   
 | --------------- | --------------- | -----------------
 | -1-------1----- | -0-------0----- | -3-------3-------
 | -----2-------2- | -----2-------2- | -----2-------2---
 | ---2-------2--- | ---2-------2--- | ---2-------2-----
 | -0-----0------- | -0-----0------- | -0-----0---------
 | --------------- | --------------- | -----------------

(6)                                                                                                 
 | --------------- | 
 | -1-------1----- | 
 | -----2-------2- | 
 | ---2-------2--- | 
 | -3-----3------- | 
 | --------------- | 
 
   C    G  Am     G          Dm7     Am 
I close my eyes,  only for a moment, and the moment's gone 
C    G    Am     G               Dm7         Am      D
All my dreams    pass before my eyes, a curiosity 
G           Am    D               G           Am  
Dust in the Wind. All they are is dust in the wind.


C    G   Am      G              Dm7      Am
Same old song,   just a drop of water in an endless sea.
C   G  Am     G               Dm7                Am              D
All we do ... crumbles to the ground .. though we refuse to see.
G           Am    D             G           Am  
Dust in the wind. All we are is dust in the wind. 

#Solo do violoncello: 
Am G Dm7 Am , Am G Dm7 Am , Am C , Am C

C         G    Am   G                Dm7             Am 
Now don't hang on,  nothing lasts forever except the earth and sky.
C  G     Am        G                  Dm7            Am          D 
It slips away, ... and all your money won't another minute buy.
G           Am    D             G           Am 
Dust in the wind. All we are is dust in the wind.
G           Am    D             G           Am 
Dust in the wind. Everything is dust in the wind. 



                       Enviado por:  Usuário Anônimo






Todos os direitos reservados ao autor.

Políticas de Privacidade
Visite nosso site www.CifrasFx.com.br