FECHAR
Cifras Recentes
Fraco Regular Bom Muito Bom Ótimo
 
Tabbed by: Ryan R. Gonzales

Tuning: eBGDGD (Capo on 2nd fret)


e ||--------------|-------------|-------------|--------------|
B ||--0-----0-1---|-0-----------|-0-----0-1-3-|-0------------|
G ||------0-----2-|-----0-------|-----0-------|-----0--------|
D ||----0---------|---0---------|---0---------|---0----------|
G ||--0-----------|-0-----4-5-2-|-0-----------|-0------------|
D ||--------------|-------------|-------------|-------0-2-4--|

e ||--------------|-------------|-------------|--------------|
B ||--0-----0-1---|-0-----------|-0-----3-1---|--------------|
G ||------0-----2-|-----0-------|-----0-----2-|-0---0--------|
D ||----0---------|---0-------0-|---0---------|---0----------|
G ||--0-----------|-0-----4-5---|-0-----------|-0------------|
D ||--------------|-------------|-------------|-------0-2-4--|

                    |-------------|                 |---------|
e ||--------0-----------------------|-------0--------------------|
B ||--3-------3---0-----------------|-3-------3---0--------------|
G ||------0-------------------0-h-2-|-----0-------------------0~-|
D ||----0-------0---0-h-2-h-4-------|---0-------0---0-h-2-h-4----|
G ||--0-----------0-----------------|-0-----------0--------------|
D ||--------------------------------|----------------------------|

                    |-------------|                 |---------|
e ||--5~~-----5---2-----------------|-3-------3------------------|
B ||--3~~-3-------------------------|---------0---3--------------|
G ||--5~~-5-----0-------------0-h-2-|-----0---------0------------|
D ||----4---4-------0-h-2-h-4-------|---0---0---0-----0----------|
G ||--------------------------------|-0-----------0-----4-2-h-4--|
D ||--0-----------0-----------------|----------------------------|

                                              |-------------|
e ||----------------------0---|-------0------------------------|
B ||--5-------5---8---7-------|-3-------3---0------------------|
G ||------5---5-------------0-|-----0--------------------------|
D ||----5---5---5---5---5-----|---0-------0---0-h-2-h-4-5-s-7--|
G ||--5-----------5-----------|-0-----------0------------------|
D ||--------------------------|--------------------------------|

                                                |---------|
e ||------------------------0---|-------0--------------------|
B ||--5-------5---8----7--------|-3-------3---0--------------|
G ||------5---5------5----5---0-|-----0-------------------0~-|
D ||----5---5---5---5----5------|---0-------0---0-h-2-h-4----|
G ||--5-----------5-------------|-0-----------0--------------|
D ||----------------------------|----------------------------|

                                       |-------------|    |---------|
e ||--5~~-----5-s-7---8---5---2v---|-3-----------------7v--------------|
B ||--3~~-3----------------------0-|----------------------0------------|
G ||--5~~-5---------0---0---0------|-----------------------------------|
D ||----4---4----------------------|---0-h-2-h-4-5-s-7-----------------|
G ||-------------------------------|-0-----------------0----4----------|
D ||--0---------------4---7---0----|--------------------------7-5-h-7--|

                                  |-----------------|
e ||--3----------|------------|-------------------------|
B ||------3------|-3~~-1v-----|-------------------------|
G ||----0-----4v-|-5~~------2-|-0-----------0-h-2-s-4v~-|
D ||--------0----|---0----0---|---0-h-2-h-4-------------|
G ||--0----------|------------|-0-------------------0~~-|
D ||-------------|-0----------|-------------------------|

                    |-------------|                 |---------|
e ||--------0-----------------------|-------0--------------------|
B ||--3-------3---0-----------------|-3-------3---0--------------|
G ||------0-------------------0-h-2-|-----0-------------------0~-|
D ||----0-------0---0-h-2-h-4-------|---0-------0---0-h-2-h-4----|
G ||--0-----------0-----------------|-0-----------0--------------|
D ||--------------------------------|----------------------------|

                    |-------------|                 |---------|
e ||--5~~-----5---2-----------------|-3-------3------------------|
B ||--3~~-3-------------------------|---------0---3--------------|
G ||--5~~-5-----0-------------0-h-2-|-----0---------0------------|
D ||----4---4-------0-h-2-h-4-------|---0---0---0-----0----------|
G ||--------------------------------|-0-----------0-----4-2-h-4--|
D ||--0-----------0-----------------|----------------------------|

                                              |-------------|
e ||----------------------0---|-------0------------------------|
B ||--5-------5---8---7-------|-3-------3---0------------------|
G ||------5---5-------------0-|-----0--------------------------|
D ||----5---5---5---5---5-----|---0-------0---0-h-2-h-4-5-s-7--|
G ||--5-----------5-----------|-0-----------0------------------|
D ||--------------------------|--------------------------------|

                                                |---------|
e ||------------------------0---|-------0--------------------|
B ||--5-------5---8----7--------|-3-------3---0--------------|
G ||------5---5------5----5---0-|-----0-------------------0~-|
D ||----5---5---5---5----5------|---0-------0---0-h-2-h-4----|
G ||--5-----------5-------------|-0-----------0--------------|
D ||----------------------------|----------------------------|

                                       |-------------|    |---------|
e ||--5~~-----5-s-7---8---5---2v---|-3-----------------7v--------------|
B ||--3~~-3----------------------0-|----------------------0------------|
G ||--5~~-5---------0---0---0------|-----------------------------------|
D ||----4---4----------------------|---0-h-2-h-4-5-s-7-----------------|
G ||-------------------------------|-0-----------------0----4----------|
D ||--0---------------4---7---0----|--------------------------7-5-h-7--|

                                  |-----------------|
e ||--3----------|------------|-------------------------|
B ||------3------|-3~~-1v-----|-------------------------|
G ||----0-----4v-|-5~~------2-|-0-----------0-h-2-s-4v~-|
D ||--------0----|---0----0---|---0-h-2-h-4-------------|
G ||--0----------|------------|-0-------------------0~~-|
D ||-------------|-0----------|-------------------------|

e ||--------------|-------------|-------------|--------------|
B ||--0-----0-1---|-0-----------|-0-----0-1-3-|-0------------|
G ||------0-----2-|-----0-------|-----0-------|-----0--------|
D ||----0---------|---0---------|---0---------|---0----------|
G ||--0-----------|-0-----4-5-2-|-0-----------|-0------------|
D ||--------------|-------------|-------------|-------0-2-4--|

e ||--------------|-------------|-------------|--------------|
B ||--0-----0-1---|-0-----------|-0-----3-1---|--------------|
G ||------0-----2-|-----0-------|-----0-----2-|-0------------|
D ||----0---------|---0-------0-|---0---------|--------------|
G ||--0-----------|-0-----4-5---|-0-----------|-0---0--------|
D ||--------------|-------------|-------------|-------2-2-4--|

                    |-------------|                 |---------|
e ||--------0-----------------------|-------0--------------------|
B ||--3-------3---0-----------------|-3-------3---0--------------|
G ||------0-------------------0-h-2-|-----0-------------------0~-|
D ||----0-------0---0-h-2-h-4-------|---0-------0---0-h-2-h-4----|
G ||--0-----------0-----------------|-0-----------0--------------|
D ||--------------------------------|----------------------------|

                    |-------------|                 |---------|
e ||--5~~-----5---2-----------------|-3-------3------------------|
B ||--3~~-3-------------------------|---------0---3--------------|
G ||--5~~-5-----0-------------0-h-2-|-----0---------0------------|
D ||----4---4-------0-h-2-h-4-------|---0---0---0-----0----------|
G ||--------------------------------|-0-----------0-----4-2-h-4--|
D ||--0-----------0-----------------|----------------------------|

                                              |-------------|
e ||----------------------0---|-------0------------------------|
B ||--5-------5---8---7-------|-3-------3---0------------------|
G ||------5---5-------------0-|-----0--------------------------|
D ||----5---5---5---5---5-----|---0-------0---0-h-2-h-4-5-s-7--|
G ||--5-----------5-----------|-0-----------0------------------|
D ||--------------------------|--------------------------------|

                                                |---------|
e ||------------------------0---|-------0--------------------|
B ||--5-------5---8----7--------|-3-------3---0--------------|
G ||------5---5------5----5---0-|-----0-------------------0~-|
D ||----5---5---5---5----5------|---0-------0---0-h-2-h-4----|
G ||--5-----------5-------------|-0-----------0--------------|
D ||----------------------------|----------------------------|

                                       |-------------|    |---------|
e ||--5~~-----5-s-7---8---5---2v---|-3-----------------7v--------------|
B ||--3~~-3----------------------0-|----------------------0------------|
G ||--5~~-5---------0---0---0------|-----------------------------------|
D ||----4---4----------------------|---0-h-2-h-4-5-s-7-----------------|
G ||-------------------------------|-0-----------------0----4----------|
D ||--0---------------4---7---0----|--------------------------7-5-h-7--|

                                  |-----------------|
e ||--3----------|------------|-------------------------|
B ||------3------|-3~~-1v-----|-------------------------|
G ||----0-----4v-|-5~~------2-|-0-----------0-h-2-s-4v~-|
D ||--------0----|---0----0---|---0-h-2-h-4-------------|
G ||--0----------|------------|-0-------------------0~~-|
D ||-------------|-0----------|-------------------------|


Tablature Legend
----------------

h - hammer on
s - slide
v - vibrato
~ - let the note ring
Enviado por: Michel



Todos os direitos reservados ao autor.

Políticas de Privacidade
Visite nosso site www.CifrasFx.com.br