FECHAR
Cifras Recentes
Fraco Regular Bom Muito Bom Ótimo
 
 (essa parte repete o tempo todo)
E|----------------------------------|-18-15----18-15----18-15-------------------14-------13-----
B|----------------------------------|-------15-------------------------------15-------15--------
G|----------------------------------|----------------18-------17--15-17---12-------12-------12--
D|----------------------------------|-----------------------------------------------------------
A|-----1-3-------------1-3----------|-----------------------------------------------------------
E|-3-3-----3-3-1-2-3-3-----3-3-1-2--|-----------------------------------------------------------

E|----12--11-10---10-8---10-8----10-8----------------14-------13-------12--11-10----------------
B|-15------------------7--------------------------15-------15-------15--------------------------
G|----------------------------10------9--7-9---12-------12-------12-----------------------------
D|------------------------------------------------------------------------------------1-3---1/3-
A|--------------------------------------------------------------------------------5-5-----5-----
E|----------------------------------------------------------------------------------------------

Missão: Impossível 2
Obs: O 2° filme tem duas músicas,uma exatamente igual a do 1° filme,só muda o tom de sol p/ ré e
acelera um pouco o ritmo.A outra é logo no início do filme em D#:

E|------------------------------------------|-11-14-11-------------------------------11--
B|------------------------------------------|----------11-------------11-----------------
G|------------------------------------------|-------------14-13-11-------14-13-11--------
D|-----4-6-4-------------4-6-4--------------|----------------------13-------------13-----
A|-(6)-------(6)-4-5-(6)-------(6)-4-5-(6)--|--------------------------------------------
E|------------------------------------------|--------------------------------------------

()=tocar 8x c/ paletada alternada (^ v ^ v...)
Enviado por: Usuário Anônimo



Todos os direitos reservados ao autor.

Políticas de Privacidade
Visite nosso site www.CifrasFx.com.br