FECHAR
Tonalidade -1 Tom -1/2 Tom +1/2 Tom +1 Tom Nomenclatura Cifras Recentes
Fraco Regular Bom Muito Bom Ótimo
Riff:  
E | ---------------------------------------------------------------- | 
B | -------------0-------------0-----------------0--------------0--- | 
G | ---------0-------0-----0-----------------0-------0------0------- | 
D | -------2---2---2-----2---2-------------4---4---4---4--4---4----- | 
A | -----3-------------3-----------3/5---5-------------------------- | 
E | ---------------------------------------------------------------- | 

Riff 2:
E | --------------5--- | 
B | --------------5--- | 
G | -----------0------ | 
D | ---------4-------- | 
A | ----3/5----------- | 
E | ------------------ | 

G                                  C9
Senhor, eu nasci pra te chamar de Deus
                          Am7                  C9
Eu nasci pra te chamar de pai e andar ao Seu lado
G                               C9
Senhor desde o ventre da minha mãe,
                       Am7           C9                G
Eu sou povo exclusivo Seu, eu sou abençoado se vivo obediente

(Riff)
C7M                      D4(6)
Mas todo dia o pecado vem , me chama
(Riff)
Todo dia as propostas vêm , me chamam
(Riff)
Todo dia vêm as tentações, me chamam

                     (Riff 2)
Todo dia o pecado vem
                 G                             C9
Mas eu escolho Deus, eu escolho ser amigo de Deus
                  G/B    Am
Eu escolho Cristo todo dia,
                                       C9
já morri pra minha vida agora vivo a vida de Deus!

G                                  C9
Senhor, eu nasci pra te chamar de Amor
                    Am                   C9
Eu nasci pra te chamar de pai e andar ao Seu lado
G                               C9
Senhor desde o ventre da minha mãe,
                       Am            C9                G
Eu sou povo exclusivo Seu, eu sou abençoado se vivo obediente

(Riff)
C7M                      D4(6)
Mas todo dia o pecado vem , me chama
(Riff)
Todo dia as propostas vêm , me chamam
(Riff)
Todo dia vêm as tentações, me chamam

                     (Riff 2)
Todo dia o pecado vem

                 G                             C9
Mas eu escolho Deus, eu escolho ser amigo de Deus
                        Am
Eu escolho Cristo todo dia,
                                       C9
já morri pra minha vida agora vivo a vida de Deus! 



                       Enviado por:  Cris






Todos os direitos reservados ao autor.

Políticas de Privacidade
Visite nosso site www.CifrasFx.com.br