FECHAR
Tonalidade -1 Tom -1/2 Tom +1/2 Tom +1 Tom Nomenclatura Cifras Recentes
Fraco Regular Bom Muito Bom Ótimo
(riff 1)

E | ------------------3--
B | ------------------3--
G | ---------------------
D | ------------------2--
A | -------0h3--------3--
E | --0h3-------------0--

(riff 2)
E | ----x-----x------------------
B | ----3-----3--------------------
G | ----0-----0----------------------
D | ----4-----4------------------------
A | ----2-----3--------------------------
E | ----x-----x---------------------------
   4x     1x

C9                           G       (riff 1)
Eu sinto falta da Sua voz
(riff 2 )
Me chamando pra entrar
 G                    Am7
Eu sinto tanta saudade
                     C9
De caminhar Contigo
                        Am7
Saudades do meu Amigo,
(riff 2)
Saudades do meu Pai
C9                         G            (riff 1)
Pai, eu sei que não mereço
(riff 2)
Mas não tenho pra onde ir,
G                        Am7
Eu sinto tanta saudade
                     C9
De conversar Contigo,
                        Am7
Saudades do meu Amigo
(riff 2)
Saudades do meu Pai
G   G/B   C9
Eu vou voltar pra casa do Pai
G                            G     G/B      C9
Eu quero o amor da casa do meu Pai
                  Am7                  (riff 2)
E repousar tranquilo nos braços do meu Pai 



                       Enviado por:  Fabio






Todos os direitos reservados ao autor.

Políticas de Privacidade
Visite nosso site www.CifrasFx.com.br